ISO-10303-21;
HEADER;
FILE_DESCRIPTION (( 'STEP AP203' ),
    '1' );
FILE_NAME ('QB-CTZQWP-12.7-852-M.STEP',
    '2020-12-24T01:49:45',
    ( '' ),
    ( '' ),
    'SwSTEP 2.0',
    'SolidWorks 2020',
    '' );
FILE_SCHEMA (( 'CONFIG_CONTROL_DESIGN' ));
ENDSEC;

DATA;
#1 = DIRECTION ( 'NONE',  ( 1.000000000000000000, 0.000000000000000000, 0.000000000000000000 ) ) ;
#2 = CIRCLE ( 'NONE', #194, 12.69999999999999929 ) ;
#3 =( NAMED_UNIT ( * ) PLANE_ANGLE_UNIT ( ) SI_UNIT ( $, .RADIAN. ) );
#4 = ORGANIZATION ( 'UNSPECIFIED', 'UNSPECIFIED', '' ) ;
#5 = CLOSED_SHELL ( 'NONE', ( #31, #120, #258, #295, #89, #222, #61, #87, #300, #306 ) ) ;
#6 = FACE_OUTER_BOUND ( 'NONE', #153, .T. ) ;
#7 = CARTESIAN_POINT ( 'NONE',  ( -1.614212418857619014, 0.000000000000000000, 0.000000000000000000 ) ) ;
#8 = DESIGN_CONTEXT ( 'detailed design', #134, 'design' ) ;
#9 = LOCAL_TIME ( 9, 49, 45.00000000000000000, #224 ) ;
#10 = FACE_OUTER_BOUND ( 'NONE', #327, .T. ) ;
#11 = COORDINATED_UNIVERSAL_TIME_OFFSET ( 8, 0, .AHEAD. ) ;
#12 = CIRCLE ( 'NONE', #186, 12.69999999999999929 ) ;
#13 = APPLICATION_CONTEXT ( 'configuration controlled 3d designs of mechanical parts and assemblies' ) ;
#14 = DIRECTION ( 'NONE',  ( -1.000000000000000000, -0.000000000000000000, -0.000000000000000000 ) ) ;
#15 = DATE_TIME_ROLE ( 'classification_date' ) ;
#16 = CARTESIAN_POINT ( 'NONE',  ( -3.000000000000000000, 6.349999999999999645, 0.000000000000000000 ) ) ;
#17 = ORIENTED_EDGE ( 'NONE', *, *, #317, .T. ) ;
#18 = DIRECTION ( 'NONE',  ( 0.000000000000000000, 0.000000000000000000, 1.000000000000000000 ) ) ;
#19 = EDGE_LOOP ( 'NONE', ( #312, #106, #17, #129 ) ) ;
#20 = PRODUCT_DEFINITION ( 'UNKNOWN', '', #208, #8 ) ;
#21 = CARTESIAN_POINT ( 'NONE',  ( 1.500000000000000444, 6.349999999999999645, 0.000000000000000000 ) ) ;
#22 = ORIENTED_EDGE ( 'NONE', *, *, #308, .F. ) ;
#23 = CIRCLE ( 'NONE', #264, 6.349999999999999645 ) ;
#24 = FACE_OUTER_BOUND ( 'NONE', #19, .T. ) ;
#25 = VERTEX_POINT ( 'NONE', #102 ) ;
#26 = AXIS2_PLACEMENT_3D ( 'NONE', #237, #128, #176 ) ;
#27 = DIRECTION ( 'NONE',  ( 0.000000000000000000, 0.000000000000000000, 1.000000000000000000 ) ) ;
#28 = VECTOR ( 'NONE', #195, 1000.000000000000000 ) ;
#29 = DIRECTION ( 'NONE',  ( 0.000000000000000000, 0.000000000000000000, -1.000000000000000000 ) ) ;
#30 = CC_DESIGN_APPROVAL ( #126, ( #20 ) ) ;
#31 = ADVANCED_FACE ( 'NONE', ( #10 ), #196, .T. ) ;
#32 = APPLICATION_PROTOCOL_DEFINITION ( 'international standard', 'config_control_design', 1994, #134 ) ;
#33 = CARTESIAN_POINT ( 'NONE',  ( 3.000000000000000000, 0.000000000000000000, 0.000000000000000000 ) ) ;
#34 = AXIS2_PLACEMENT_3D ( 'NONE', #296, #190, #302 ) ;
#35 = APPROVAL_DATE_TIME ( #68, #182 ) ;
#36 = ORIENTED_EDGE ( 'NONE', *, *, #142, .F. ) ;
#37 = CALENDAR_DATE ( 2020, 24, 12 ) ;
#38 = VECTOR ( 'NONE', #163, 1000.000000000000000 ) ;
#39 = CC_DESIGN_PERSON_AND_ORGANIZATION_ASSIGNMENT ( #275, #253, ( #208 ) ) ;
#40 = SHAPE_DEFINITION_REPRESENTATION ( #139, #75 ) ;
#41 = DIRECTION ( 'NONE',  ( -1.000000000000000000, -0.000000000000000000, -0.000000000000000000 ) ) ;
#42 = DATE_AND_TIME ( #193, #9 ) ;
#43 = CIRCLE ( 'NONE', #239, 6.349999999999999645 ) ;
#44 = FACE_BOUND ( 'NONE', #256, .T. ) ;
#45 = VERTEX_POINT ( 'NONE', #276 ) ;
#46 = AXIS2_PLACEMENT_3D ( 'NONE', #108, #171, #56 ) ;
#47 = DIRECTION ( 'NONE',  ( -1.000000000000000000, -0.000000000000000000, -0.000000000000000000 ) ) ;
#48 = CC_DESIGN_SECURITY_CLASSIFICATION ( #233, ( #208 ) ) ;
#49 = VERTEX_POINT ( 'NONE', #292 ) ;
#50 = EDGE_CURVE ( 'NONE', #246, #325, #103, .T. ) ;
#51 = EDGE_CURVE ( 'NONE', #157, #45, #144, .T. ) ;
#52 = FACE_OUTER_BOUND ( 'NONE', #266, .T. ) ;
#53 = ORIENTED_EDGE ( 'NONE', *, *, #188, .F. ) ;
#54 = LINE ( 'NONE', #283, #155 ) ;
#55 = ORIENTED_EDGE ( 'NONE', *, *, #185, .F. ) ;
#56 = DIRECTION ( 'NONE',  ( 0.000000000000000000, 0.000000000000000000, -1.000000000000000000 ) ) ;
#57 = ORIENTED_EDGE ( 'NONE', *, *, #200, .F. ) ;
#58 = CC_DESIGN_APPROVAL ( #182, ( #233 ) ) ;
#59 = PLANE ( 'NONE',  #254 ) ;
#60 =( LENGTH_UNIT ( ) NAMED_UNIT ( * ) SI_UNIT ( .MILLI., .METRE. ) );
#61 = ADVANCED_FACE ( 'NONE', ( #44, #67 ), #141, .F. ) ;
#62 = CARTESIAN_POINT ( 'NONE',  ( -1.614212418857619014, 0.000000000000000000, 6.349999999999999645 ) ) ;
#63 = APPROVAL_ROLE ( '' ) ;
#64 = PERSON_AND_ORGANIZATION ( #209, #4 ) ;
#65 = APPROVAL_PERSON_ORGANIZATION ( #297, #168, #146 ) ;
#66 = PERSON_AND_ORGANIZATION_ROLE ( 'classification_officer' ) ;
#67 = FACE_OUTER_BOUND ( 'NONE', #113, .T. ) ;
#68 = DATE_AND_TIME ( #37, #173 ) ;
#69 = CC_DESIGN_PERSON_AND_ORGANIZATION_ASSIGNMENT ( #96, #121, ( #20 ) ) ;
#70 = DIRECTION ( 'NONE',  ( 0.000000000000000000, 0.000000000000000000, 1.000000000000000000 ) ) ;
#71 = APPROVAL_STATUS ( 'not_yet_approved' ) ;
#72 = UNCERTAINTY_MEASURE_WITH_UNIT (LENGTH_MEASURE( 1.000000000000000082E-05 ), #60, 'distance_accuracy_value', 'NONE');
#73 = CARTESIAN_POINT ( 'NONE',  ( -1.614212418857619014, 7.776507174585692163E-16, -6.349999999999999645 ) ) ;
#74 = PERSON_AND_ORGANIZATION ( #209, #4 ) ;
#75 = ADVANCED_BREP_SHAPE_REPRESENTATION ( 'QB-CTZQWP-12.7-852-M', ( #212, #257 ), #286 ) ;
#76 = DIRECTION ( 'NONE',  ( 0.000000000000000000, 0.000000000000000000, 1.000000000000000000 ) ) ;
#77 = AXIS2_PLACEMENT_3D ( 'NONE', #16, #147, #218 ) ;
#78 = CARTESIAN_POINT ( 'NONE',  ( -3.000000000000000000, 0.000000000000000000, 0.000000000000000000 ) ) ;
#79 = VERTEX_POINT ( 'NONE', #216 ) ;
#80 = AXIS2_PLACEMENT_3D ( 'NONE', #136, #165, #273 ) ;
#81 = PLANE ( 'NONE',  #335 ) ;
#82 = VERTEX_POINT ( 'NONE', #320 ) ;
#83 = AXIS2_PLACEMENT_3D ( 'NONE', #252, #255, #318 ) ;
#84 = DIRECTION ( 'NONE',  ( 0.000000000000000000, 0.000000000000000000, 1.000000000000000000 ) ) ;
#85 = ORIENTED_EDGE ( 'NONE', *, *, #162, .F. ) ;
#86 = ORIENTED_EDGE ( 'NONE', *, *, #51, .T. ) ;
#87 = ADVANCED_FACE ( 'NONE', ( #95 ), #248, .T. ) ;
#88 = CARTESIAN_POINT ( 'NONE',  ( -1.614212418857619014, 0.000000000000000000, 6.349999999999999645 ) ) ;
#89 = ADVANCED_FACE ( 'NONE', ( #197 ), #169, .F. ) ;
#90 = LINE ( 'NONE', #88, #38 ) ;
#91 = APPROVAL_STATUS ( 'not_yet_approved' ) ;
#92 = CALENDAR_DATE ( 2020, 24, 12 ) ;
#93 = AXIS2_PLACEMENT_3D ( 'NONE', #277, #150, #18 ) ;
#94 = APPROVAL_PERSON_ORGANIZATION ( #74, #182, #191 ) ;
#95 = FACE_OUTER_BOUND ( 'NONE', #334, .T. ) ;
#96 = PERSON_AND_ORGANIZATION ( #209, #4 ) ;
#97 = ORIENTED_EDGE ( 'NONE', *, *, #185, .T. ) ;
#98 = PERSON_AND_ORGANIZATION_ROLE ( 'design_supplier' ) ;
#99 = EDGE_LOOP ( 'NONE', ( #175, #53, #206, #127 ) ) ;
#100 = AXIS2_PLACEMENT_3D ( 'NONE', #307, #110, #84 ) ;
#101 = COORDINATED_UNIVERSAL_TIME_OFFSET ( 8, 0, .AHEAD. ) ;
#102 = CARTESIAN_POINT ( 'NONE',  ( -2.999999999999999556, 0.000000000000000000, 6.349999999999999645 ) ) ;
#103 = LINE ( 'NONE', #316, #230 ) ;
#104 = ORIENTED_EDGE ( 'NONE', *, *, #314, .F. ) ;
#105 = DIRECTION ( 'NONE',  ( 0.000000000000000000, 0.000000000000000000, 1.000000000000000000 ) ) ;
#106 = ORIENTED_EDGE ( 'NONE', *, *, #180, .T. ) ;
#107 = LOCAL_TIME ( 9, 49, 45.00000000000000000, #213 ) ;
#108 = CARTESIAN_POINT ( 'NONE',  ( -1.500000000000000444, 0.000000000000000000, 0.000000000000000000 ) ) ;
#109 = ORIENTED_EDGE ( 'NONE', *, *, #227, .T. ) ;
#110 = DIRECTION ( 'NONE',  ( -1.000000000000000000, -0.000000000000000000, -0.000000000000000000 ) ) ;
#111 = ORIENTED_EDGE ( 'NONE', *, *, #250, .F. ) ;
#112 = CARTESIAN_POINT ( 'NONE',  ( 3.000000000000000000, 1.555301434917138433E-15, -12.69999999999999929 ) ) ;
#113 = EDGE_LOOP ( 'NONE', ( #280, #305 ) ) ;
#114 = CIRCLE ( 'NONE', #160, 6.349999999999999645 ) ;
#115 = DIRECTION ( 'NONE',  ( -1.000000000000000000, -0.000000000000000000, -0.000000000000000000 ) ) ;
#116 = APPLICATION_PROTOCOL_DEFINITION ( 'international standard', 'config_control_design', 1994, #13 ) ;
#117 = CARTESIAN_POINT ( 'NONE',  ( -1.614212418857619014, 0.000000000000000000, 0.000000000000000000 ) ) ;
#118 = PERSON_AND_ORGANIZATION ( #209, #4 ) ;
#119 = CC_DESIGN_DATE_AND_TIME_ASSIGNMENT ( #294, #15, ( #233 ) ) ;
#120 = ADVANCED_FACE ( 'NONE', ( #323 ), #145, .F. ) ;
#121 = PERSON_AND_ORGANIZATION_ROLE ( 'creator' ) ;
#122 = DIRECTION ( 'NONE',  ( 0.000000000000000000, 0.000000000000000000, -1.000000000000000000 ) ) ;
#123 = AXIS2_PLACEMENT_3D ( 'NONE', #78, #14, #70 ) ;
#124 = DATE_TIME_ROLE ( 'creation_date' ) ;
#125 = DIRECTION ( 'NONE',  ( -1.000000000000000000, -0.000000000000000000, -0.000000000000000000 ) ) ;
#126 = APPROVAL ( #91, 'UNSPECIFIED' ) ;
#127 = ORIENTED_EDGE ( 'NONE', *, *, #265, .T. ) ;
#128 = DIRECTION ( 'NONE',  ( -1.000000000000000000, -0.000000000000000000, -0.000000000000000000 ) ) ;
#129 = ORIENTED_EDGE ( 'NONE', *, *, #287, .T. ) ;
#130 = AXIS2_PLACEMENT_3D ( 'NONE', #143, #225, #324 ) ;
#131 = CARTESIAN_POINT ( 'NONE',  ( -3.000000000000000000, 0.000000000000000000, 0.000000000000000000 ) ) ;
#132 = PRODUCT_RELATED_PRODUCT_CATEGORY ( 'detail', '', ( #244 ) ) ;
#133 = ORIENTED_EDGE ( 'NONE', *, *, #285, .T. ) ;
#134 = APPLICATION_CONTEXT ( 'configuration controlled 3d designs of mechanical parts and assemblies' ) ;
#135 = CC_DESIGN_PERSON_AND_ORGANIZATION_ASSIGNMENT ( #291, #66, ( #233 ) ) ;
#136 = CARTESIAN_POINT ( 'NONE',  ( 3.000000000000000000, 12.69999999999999929, 0.000000000000000000 ) ) ;
#137 = MECHANICAL_CONTEXT ( 'NONE', #13, 'mechanical' ) ;
#138 = CC_DESIGN_PERSON_AND_ORGANIZATION_ASSIGNMENT ( #64, #187, ( #244 ) ) ;
#139 = PRODUCT_DEFINITION_SHAPE ( 'NONE', 'NONE',  #20 ) ;
#140 = CARTESIAN_POINT ( 'NONE',  ( 1.500000000000000888, 0.000000000000000000, 0.000000000000000000 ) ) ;
#141 = PLANE ( 'NONE',  #77 ) ;
#142 = EDGE_CURVE ( 'NONE', #82, #282, #271, .T. ) ;
#143 = CARTESIAN_POINT ( 'NONE',  ( -1.614212418857619014, 0.000000000000000000, 0.000000000000000000 ) ) ;
#144 = LINE ( 'NONE', #73, #28 ) ;
#145 = CYLINDRICAL_SURFACE ( 'NONE', #83, 6.349999999999999645 ) ;
#146 = APPROVAL_ROLE ( '' ) ;
#147 = DIRECTION ( 'NONE',  ( 1.000000000000000000, 0.000000000000000000, 0.000000000000000000 ) ) ;
#148 = ORIENTED_EDGE ( 'NONE', *, *, #285, .F. ) ;
#149 = EDGE_CURVE ( 'NONE', #79, #325, #251, .T. ) ;
#150 = DIRECTION ( 'NONE',  ( -1.000000000000000000, -0.000000000000000000, -0.000000000000000000 ) ) ;
#151 = ORIENTED_EDGE ( 'NONE', *, *, #180, .F. ) ;
#152 = DIRECTION ( 'NONE',  ( -1.000000000000000000, -0.000000000000000000, -0.000000000000000000 ) ) ;
#153 = EDGE_LOOP ( 'NONE', ( #148, #151 ) ) ;
#154 = LINE ( 'NONE', #309, #215 ) ;
#155 = VECTOR ( 'NONE', #47, 1000.000000000000000 ) ;
#156 = DIRECTION ( 'NONE',  ( -1.000000000000000000, -0.000000000000000000, -0.000000000000000000 ) ) ;
#157 = VERTEX_POINT ( 'NONE', #274 ) ;
#158 = VECTOR ( 'NONE', #115, 1000.000000000000000 ) ;
#159 = DIRECTION ( 'NONE',  ( 1.000000000000000000, 0.000000000000000000, 0.000000000000000000 ) ) ;
#160 = AXIS2_PLACEMENT_3D ( 'NONE', #140, #183, #27 ) ;
#161 = CARTESIAN_POINT ( 'NONE',  ( -1.500000000000000444, 6.349999999999999645, 0.000000000000000000 ) ) ;
#162 = EDGE_CURVE ( 'NONE', #246, #332, #12, .T. ) ;
#163 = DIRECTION ( 'NONE',  ( -1.000000000000000000, -0.000000000000000000, -0.000000000000000000 ) ) ;
#164 = AXIS2_PLACEMENT_3D ( 'NONE', #178, #304, #326 ) ;
#165 = DIRECTION ( 'NONE',  ( -1.000000000000000000, 0.000000000000000000, -0.000000000000000000 ) ) ;
#166 = DATE_AND_TIME ( #321, #330 ) ;
#167 = CARTESIAN_POINT ( 'NONE',  ( -1.500000000000000444, 0.000000000000000000, 0.000000000000000000 ) ) ;
#168 = APPROVAL ( #71, 'UNSPECIFIED' ) ;
#169 = CYLINDRICAL_SURFACE ( 'NONE', #205, 6.349999999999999645 ) ;
#170 = CARTESIAN_POINT ( 'NONE',  ( -1.500000000000000444, 0.000000000000000000, 6.349999999999999645 ) ) ;
#171 = DIRECTION ( 'NONE',  ( 1.000000000000000000, 0.000000000000000000, 0.000000000000000000 ) ) ;
#172 = VERTEX_POINT ( 'NONE', #170 ) ;
#173 = LOCAL_TIME ( 9, 49, 45.00000000000000000, #11 ) ;
#174 = DIRECTION ( 'NONE',  ( -1.000000000000000000, 0.000000000000000000, -0.000000000000000000 ) ) ;
#175 = ORIENTED_EDGE ( 'NONE', *, *, #227, .F. ) ;
#176 = DIRECTION ( 'NONE',  ( 0.000000000000000000, 0.000000000000000000, 1.000000000000000000 ) ) ;
#177 = ORIENTED_EDGE ( 'NONE', *, *, #317, .F. ) ;
#178 = CARTESIAN_POINT ( 'NONE',  ( 1.500000000000000888, 0.000000000000000000, 0.000000000000000000 ) ) ;
#179 = EDGE_LOOP ( 'NONE', ( #268, #229 ) ) ;
#180 = EDGE_CURVE ( 'NONE', #157, #172, #43, .T. ) ;
#181 = CIRCLE ( 'NONE', #26, 6.349999999999999645 ) ;
#182 = APPROVAL ( #217, 'UNSPECIFIED' ) ;
#183 = DIRECTION ( 'NONE',  ( -1.000000000000000000, -0.000000000000000000, -0.000000000000000000 ) ) ;
#184 = PERSON_AND_ORGANIZATION ( #209, #4 ) ;
#185 = EDGE_CURVE ( 'NONE', #45, #25, #23, .T. ) ;
#186 = AXIS2_PLACEMENT_3D ( 'NONE', #33, #125, #76 ) ;
#187 = PERSON_AND_ORGANIZATION_ROLE ( 'design_owner' ) ;
#188 = EDGE_CURVE ( 'NONE', #282, #82, #181, .T. ) ;
#189 = LOCAL_TIME ( 9, 49, 45.00000000000000000, #101 ) ;
#190 = DIRECTION ( 'NONE',  ( -1.000000000000000000, -0.000000000000000000, -0.000000000000000000 ) ) ;
#191 = APPROVAL_ROLE ( '' ) ;
#192 = DIRECTION ( 'NONE',  ( -1.000000000000000000, -0.000000000000000000, -0.000000000000000000 ) ) ;
#193 = CALENDAR_DATE ( 2020, 24, 12 ) ;
#194 = AXIS2_PLACEMENT_3D ( 'NONE', #131, #267, #261 ) ;
#195 = DIRECTION ( 'NONE',  ( -1.000000000000000000, -0.000000000000000000, -0.000000000000000000 ) ) ;
#196 = CYLINDRICAL_SURFACE ( 'NONE', #130, 12.69999999999999929 ) ;
#197 = FACE_OUTER_BOUND ( 'NONE', #99, .T. ) ;
#198 = FACE_OUTER_BOUND ( 'NONE', #278, .T. ) ;
#199 = ORIENTED_EDGE ( 'NONE', *, *, #265, .F. ) ;
#200 = EDGE_CURVE ( 'NONE', #332, #79, #154, .T. ) ;
#201 = FACE_BOUND ( 'NONE', #179, .T. ) ;
#202 = EDGE_LOOP ( 'NONE', ( #133, #86, #97, #177 ) ) ;
#203 = CARTESIAN_POINT ( 'NONE',  ( 3.000000000000000000, 0.000000000000000000, 0.000000000000000000 ) ) ;
#204 = ORIENTED_EDGE ( 'NONE', *, *, #50, .T. ) ;
#205 = AXIS2_PLACEMENT_3D ( 'NONE', #117, #41, #301 ) ;
#206 = ORIENTED_EDGE ( 'NONE', *, *, #308, .T. ) ;
#207 = CIRCLE ( 'NONE', #93, 6.349999999999999645 ) ;
#208 = PRODUCT_DEFINITION_FORMATION_WITH_SPECIFIED_SOURCE ( 'ANY', '', #244, .NOT_KNOWN. ) ;
#209 = PERSON ( 'UNSPECIFIED', 'UNSPECIFIED', 'UNSPECIFIED', ('UNSPECIFIED'), ('UNSPECIFIED'), ('UNSPECIFIED') ) ;
#210 = AXIS2_PLACEMENT_3D ( 'NONE', #7, #192, #298 ) ;
#211 = CARTESIAN_POINT ( 'NONE',  ( -3.000000000000000000, 1.555301434917138433E-15, -12.69999999999999929 ) ) ;
#212 = MANIFOLD_SOLID_BREP ( 'Ðý×', #5 ) ;
#213 = COORDINATED_UNIVERSAL_TIME_OFFSET ( 8, 0, .AHEAD. ) ;
#214 = APPROVAL_DATE_TIME ( #245, #126 ) ;
#215 = VECTOR ( 'NONE', #156, 1000.000000000000000 ) ;
#216 = CARTESIAN_POINT ( 'NONE',  ( -3.000000000000000000, 0.000000000000000000, 12.69999999999999929 ) ) ;
#217 = APPROVAL_STATUS ( 'not_yet_approved' ) ;
#218 = DIRECTION ( 'NONE',  ( 0.000000000000000000, 0.000000000000000000, -1.000000000000000000 ) ) ;
#219 = SECURITY_CLASSIFICATION_LEVEL ( 'unclassified' ) ;
#220 = CARTESIAN_POINT ( 'NONE',  ( -2.999999999999999556, 0.000000000000000000, 0.000000000000000000 ) ) ;
#221 = APPROVAL_DATE_TIME ( #166, #168 ) ;
#222 = ADVANCED_FACE ( 'NONE', ( #24 ), #263, .F. ) ;
#223 = DIRECTION ( 'NONE',  ( -1.000000000000000000, -0.000000000000000000, -0.000000000000000000 ) ) ;
#224 = COORDINATED_UNIVERSAL_TIME_OFFSET ( 8, 0, .AHEAD. ) ;
#225 = DIRECTION ( 'NONE',  ( -1.000000000000000000, -0.000000000000000000, -0.000000000000000000 ) ) ;
#226 = ORIENTED_EDGE ( 'NONE', *, *, #247, .F. ) ;
#227 = EDGE_CURVE ( 'NONE', #82, #49, #54, .T. ) ;
#228 = DIRECTION ( 'NONE',  ( -1.000000000000000000, -0.000000000000000000, -0.000000000000000000 ) ) ;
#229 = ORIENTED_EDGE ( 'NONE', *, *, #142, .T. ) ;
#230 = VECTOR ( 'NONE', #223, 1000.000000000000000 ) ;
#231 = DIRECTION ( 'NONE',  ( -1.000000000000000000, -0.000000000000000000, -0.000000000000000000 ) ) ;
#232 = ORIENTED_EDGE ( 'NONE', *, *, #149, .F. ) ;
#233 = SECURITY_CLASSIFICATION ( '', '', #219 ) ;
#234 = DIRECTION ( 'NONE',  ( 0.000000000000000000, 0.000000000000000000, 1.000000000000000000 ) ) ;
#235 = ORIENTED_EDGE ( 'NONE', *, *, #200, .T. ) ;
#236 = CC_DESIGN_DATE_AND_TIME_ASSIGNMENT ( #42, #124, ( #20 ) ) ;
#237 = CARTESIAN_POINT ( 'NONE',  ( 3.000000000000000888, 0.000000000000000000, 0.000000000000000000 ) ) ;
#238 = ORIENTED_EDGE ( 'NONE', *, *, #287, .F. ) ;
#239 = AXIS2_PLACEMENT_3D ( 'NONE', #167, #249, #122 ) ;
#240 = AXIS2_PLACEMENT_3D ( 'NONE', #333, #152, #234 ) ;
#241 =( NAMED_UNIT ( * ) SI_UNIT ( $, .STERADIAN. ) SOLID_ANGLE_UNIT ( ) );
#242 = CARTESIAN_POINT ( 'NONE',  ( 0.000000000000000000, 0.000000000000000000, 0.000000000000000000 ) ) ;
#243 = CIRCLE ( 'NONE', #164, 6.349999999999999645 ) ;
#244 = PRODUCT ( 'QB-CTZQWP-12.7-852-M', 'QB-CTZQWP-12.7-852-M', '', ( #137 ) ) ;
#245 = DATE_AND_TIME ( #92, #107 ) ;
#246 = VERTEX_POINT ( 'NONE', #112 ) ;
#247 = EDGE_CURVE ( 'NONE', #332, #246, #269, .T. ) ;
#248 = CYLINDRICAL_SURFACE ( 'NONE', #210, 12.69999999999999929 ) ;
#249 = DIRECTION ( 'NONE',  ( 1.000000000000000000, 0.000000000000000000, 0.000000000000000000 ) ) ;
#250 = EDGE_CURVE ( 'NONE', #325, #79, #2, .T. ) ;
#251 = CIRCLE ( 'NONE', #123, 12.69999999999999929 ) ;
#252 = CARTESIAN_POINT ( 'NONE',  ( -1.614212418857619014, 0.000000000000000000, 0.000000000000000000 ) ) ;
#253 = PERSON_AND_ORGANIZATION_ROLE ( 'creator' ) ;
#254 = AXIS2_PLACEMENT_3D ( 'NONE', #161, #159, #29 ) ;
#255 = DIRECTION ( 'NONE',  ( -1.000000000000000000, -0.000000000000000000, -0.000000000000000000 ) ) ;
#256 = EDGE_LOOP ( 'NONE', ( #238, #55 ) ) ;
#257 = AXIS2_PLACEMENT_3D ( 'NONE', #242, #288, #1 ) ;
#258 = ADVANCED_FACE ( 'NONE', ( #331 ), #328, .F. ) ;
#259 = CARTESIAN_POINT ( 'NONE',  ( 3.000000000000000888, 0.000000000000000000, 6.349999999999999645 ) ) ;
#260 = ORIENTED_EDGE ( 'NONE', *, *, #247, .T. ) ;
#261 = DIRECTION ( 'NONE',  ( 0.000000000000000000, 0.000000000000000000, 1.000000000000000000 ) ) ;
#262 = ORIENTED_EDGE ( 'NONE', *, *, #162, .T. ) ;
#263 = CYLINDRICAL_SURFACE ( 'NONE', #240, 6.349999999999999645 ) ;
#264 = AXIS2_PLACEMENT_3D ( 'NONE', #220, #231, #281 ) ;
#265 = EDGE_CURVE ( 'NONE', #329, #49, #243, .T. ) ;
#266 = EDGE_LOOP ( 'NONE', ( #226, #85 ) ) ;
#267 = DIRECTION ( 'NONE',  ( -1.000000000000000000, -0.000000000000000000, -0.000000000000000000 ) ) ;
#268 = ORIENTED_EDGE ( 'NONE', *, *, #188, .T. ) ;
#269 = CIRCLE ( 'NONE', #311, 12.69999999999999929 ) ;
#270 = LINE ( 'NONE', #62, #158 ) ;
#271 = CIRCLE ( 'NONE', #34, 6.349999999999999645 ) ;
#272 = CARTESIAN_POINT ( 'NONE',  ( 3.000000000000000000, 0.000000000000000000, 12.69999999999999929 ) ) ;
#273 = DIRECTION ( 'NONE',  ( -0.000000000000000000, 0.000000000000000000, 1.000000000000000000 ) ) ;
#274 = CARTESIAN_POINT ( 'NONE',  ( -1.500000000000000444, 7.776507174585692163E-16, -6.349999999999999645 ) ) ;
#275 = PERSON_AND_ORGANIZATION ( #209, #4 ) ;
#276 = CARTESIAN_POINT ( 'NONE',  ( -2.999999999999999556, 7.776507174585692163E-16, -6.349999999999999645 ) ) ;
#277 = CARTESIAN_POINT ( 'NONE',  ( -2.999999999999999556, 0.000000000000000000, 0.000000000000000000 ) ) ;
#278 = EDGE_LOOP ( 'NONE', ( #199, #104 ) ) ;
#279 = DIRECTION ( 'NONE',  ( -0.000000000000000000, 0.000000000000000000, 1.000000000000000000 ) ) ;
#280 = ORIENTED_EDGE ( 'NONE', *, *, #149, .T. ) ;
#281 = DIRECTION ( 'NONE',  ( 0.000000000000000000, 0.000000000000000000, 1.000000000000000000 ) ) ;
#282 = VERTEX_POINT ( 'NONE', #259 ) ;
#283 = CARTESIAN_POINT ( 'NONE',  ( -1.614212418857619014, 7.776507174585692163E-16, -6.349999999999999645 ) ) ;
#284 = ORIENTED_EDGE ( 'NONE', *, *, #50, .F. ) ;
#285 = EDGE_CURVE ( 'NONE', #172, #157, #322, .T. ) ;
#286 =( GEOMETRIC_REPRESENTATION_CONTEXT ( 3 ) GLOBAL_UNCERTAINTY_ASSIGNED_CONTEXT ( ( #72 ) ) GLOBAL_UNIT_ASSIGNED_CONTEXT ( ( #60, #3, #241 ) ) REPRESENTATION_CONTEXT ( 'NONE', 'WORKASPACE' ) );
#287 = EDGE_CURVE ( 'NONE', #25, #45, #207, .T. ) ;
#288 = DIRECTION ( 'NONE',  ( 0.000000000000000000, 0.000000000000000000, 1.000000000000000000 ) ) ;
#289 = CARTESIAN_POINT ( 'NONE',  ( 1.500000000000000888, 0.000000000000000000, 6.349999999999999645 ) ) ;
#290 = CC_DESIGN_APPROVAL ( #168, ( #208 ) ) ;
#291 = PERSON_AND_ORGANIZATION ( #209, #4 ) ;
#292 = CARTESIAN_POINT ( 'NONE',  ( 1.500000000000000888, 7.776507174585692163E-16, -6.349999999999999645 ) ) ;
#293 = CC_DESIGN_PERSON_AND_ORGANIZATION_ASSIGNMENT ( #118, #98, ( #208 ) ) ;
#294 = DATE_AND_TIME ( #299, #189 ) ;
#295 = ADVANCED_FACE ( 'NONE', ( #198 ), #81, .F. ) ;
#296 = CARTESIAN_POINT ( 'NONE',  ( 3.000000000000000888, 0.000000000000000000, 0.000000000000000000 ) ) ;
#297 = PERSON_AND_ORGANIZATION ( #209, #4 ) ;
#298 = DIRECTION ( 'NONE',  ( 0.000000000000000000, 0.000000000000000000, 1.000000000000000000 ) ) ;
#299 = CALENDAR_DATE ( 2020, 24, 12 ) ;
#300 = ADVANCED_FACE ( 'NONE', ( #52, #201 ), #313, .F. ) ;
#301 = DIRECTION ( 'NONE',  ( 0.000000000000000000, 0.000000000000000000, 1.000000000000000000 ) ) ;
#302 = DIRECTION ( 'NONE',  ( 0.000000000000000000, 0.000000000000000000, 1.000000000000000000 ) ) ;
#303 = EDGE_LOOP ( 'NONE', ( #36, #109, #310, #22 ) ) ;
#304 = DIRECTION ( 'NONE',  ( -1.000000000000000000, -0.000000000000000000, -0.000000000000000000 ) ) ;
#305 = ORIENTED_EDGE ( 'NONE', *, *, #250, .T. ) ;
#306 = ADVANCED_FACE ( 'NONE', ( #6 ), #59, .F. ) ;
#307 = CARTESIAN_POINT ( 'NONE',  ( -1.614212418857619014, 0.000000000000000000, 0.000000000000000000 ) ) ;
#308 = EDGE_CURVE ( 'NONE', #282, #329, #270, .T. ) ;
#309 = CARTESIAN_POINT ( 'NONE',  ( -1.614212418857619014, 0.000000000000000000, 12.69999999999999929 ) ) ;
#310 = ORIENTED_EDGE ( 'NONE', *, *, #314, .T. ) ;
#311 = AXIS2_PLACEMENT_3D ( 'NONE', #203, #228, #105 ) ;
#312 = ORIENTED_EDGE ( 'NONE', *, *, #51, .F. ) ;
#313 = PLANE ( 'NONE',  #80 ) ;
#314 = EDGE_CURVE ( 'NONE', #49, #329, #114, .T. ) ;
#315 = APPROVAL_PERSON_ORGANIZATION ( #184, #126, #63 ) ;
#316 = CARTESIAN_POINT ( 'NONE',  ( -1.614212418857619014, 1.555301434917138433E-15, -12.69999999999999929 ) ) ;
#317 = EDGE_CURVE ( 'NONE', #172, #25, #90, .T. ) ;
#318 = DIRECTION ( 'NONE',  ( 0.000000000000000000, 0.000000000000000000, 1.000000000000000000 ) ) ;
#319 = COORDINATED_UNIVERSAL_TIME_OFFSET ( 8, 0, .AHEAD. ) ;
#320 = CARTESIAN_POINT ( 'NONE',  ( 3.000000000000000888, 7.776507174585692163E-16, -6.349999999999999645 ) ) ;
#321 = CALENDAR_DATE ( 2020, 24, 12 ) ;
#322 = CIRCLE ( 'NONE', #46, 6.349999999999999645 ) ;
#323 = FACE_OUTER_BOUND ( 'NONE', #202, .T. ) ;
#324 = DIRECTION ( 'NONE',  ( 0.000000000000000000, 0.000000000000000000, 1.000000000000000000 ) ) ;
#325 = VERTEX_POINT ( 'NONE', #211 ) ;
#326 = DIRECTION ( 'NONE',  ( 0.000000000000000000, 0.000000000000000000, 1.000000000000000000 ) ) ;
#327 = EDGE_LOOP ( 'NONE', ( #260, #204, #232, #57 ) ) ;
#328 = CYLINDRICAL_SURFACE ( 'NONE', #100, 6.349999999999999645 ) ;
#329 = VERTEX_POINT ( 'NONE', #289 ) ;
#330 = LOCAL_TIME ( 9, 49, 45.00000000000000000, #319 ) ;
#331 = FACE_OUTER_BOUND ( 'NONE', #303, .T. ) ;
#332 = VERTEX_POINT ( 'NONE', #272 ) ;
#333 = CARTESIAN_POINT ( 'NONE',  ( -1.614212418857619014, 0.000000000000000000, 0.000000000000000000 ) ) ;
#334 = EDGE_LOOP ( 'NONE', ( #284, #262, #235, #111 ) ) ;
#335 = AXIS2_PLACEMENT_3D ( 'NONE', #21, #174, #279 ) ;
ENDSEC;
END-ISO-10303-21;
